From whom the bells toll

Gitaarliedjes, tabs & akkoorden (chords) From whom the bells toll - metallica

Songtype: Tab

arrow&v

Markeer als favoriet

Favoriet

Gemarkeerd als favoriet

Capo:

0

metallica

metallica

Song
Album
Categorie

From whom the bells toll

ride the lightning

Downloads
664
Niveau
2
Geplaatst door
rollinthunder
ProTabs-promo.jpg

from whom the bells toll - metallica

Intro: 0:08
|------------------------------------|
|------------------------------------|
|-----------------7-6-5-4------7-----|Play 4 times
|-4-4--4-4-2---------------5-4-------|
|-4-4--4-4-2-Lets Ring-----------5-4-|
|-2-2--2-2-0-------------------------|

Intro Part 2: 0:26
Basically the same
|---------------------------------|
|---------------------------------|
|-------------7-6-5-4-------7-----|Play 4 times
|-4--4--2---------------5-4-------|
|-4--4--2-Let Ring------------5-4-|
|-2--2--0-------------------------|


Riff A: 0:40

|-------------|--------------|---------|
|-------------|--------------|---------|
|-------------|--------------|---------|Play 4 times
|-------4-4-2-|--------------|--4--4---|
|-------4-4-2-|--------------|--4--4---|
|-------2-2-0-|--------------|--2--2---|


Riff B: 0:56

|------------------------------------------------------------------|
|------------------------------------------------------------------|
|------------------------------------------------------------------|X2 Let B chord
|--2-5-4-3-2-5-4-3-2-5-4-3-2-3-4-2-2-5-4-3-2-5-4-3-2-5-4-3-2-3-4-2-| ring after
|--2-5-4-3-2-5-4-3-2-5-4-3-2-3-4-0-2-5-4-3-2-5-4-3-2-5-4-3-2-3-4-2-| second time
|--0-3-2-1-0-3-2-1-0-3-2-1-0-1-2---0-3-2-1-0-3-2-1-0-3-2-1-0-1-2---|


Riff C: 1:17-1:50

Rhy Fig 2 (play 8 times)

e:--------------------------------------|--------------------------------------|
B:--8-----7--------7--8-----7--------7--|--8-----7--------7--8-----7--------7--|
G:-----9-----7--9--------9-----7--9-----|------9-----7--9--------9-----7--9----|
D:--------------------------------------|--------------------------------------|
A:--------------------------------------|--------------------------------------|
E:--------------------------------------|--------------------------------------|

Guitar II plays Rhy fig 3. while Guitar I plays Rhy. Fig 2.

Rhy Fig 3.

e:--------------------------------------|----------------------------------------|
B---------------------------------------|----------------------------------------|
G---------------------------------------|-------------------3-----2--------------|
D---------2---------5-------------X-----|----2----5---------5-----2--------------|
A---------2---------5-------------X-----|----2----5---------5-----0--------------|
E---------0---------3-------------X-----|----0----3------------------------------|




Riff c (also the chorus)1:51 Both guitars

|--------------------------------------------------------------|
|--------------------------------------------------------------|
|--------------------------3-----------------------------3-----|play 2 Times
|--------5-------7-------5-3-4---------5-------7-------5-3-4-3-|
|--------5-------7-------5-1-4---------5-------7-------5-1-4-3-|
|--0-0-0-3-0-0-0-5-0-0-0-3---2---0-0-0-3-0-0-0-5-0-0-0-3---2-1-|

now go into verse 1 over rhythm fig 3 followed by riff c twice


Make his fight on the hill in the early day constant chill deep inside
Shouting gun on they run through the endless grey on they fight for the right
yes but whos to say
For a hill men would kill why they do not know
Stiffened wounds test there pride
Men of five still alive through the raging glow gone insane from this pain that
they surely know

For Whom the Bell Tolls
Time marchs on
For Whom the Bell Tolls


Now play Riff D 2:39

Interlude 2:54 Both Guitars
|---------------------------------------|
|---------------------------------------|
|--12-9-11----9-------------------------|
|----------12---11-12-9-11----9---------|
|--------------------------12---10-2----|
|----------------------------------0----|

|--------------------------------------------------------|
|--------------------------------------------------------|
|--12-9-11----9------------------------------------------|
|----------12---11-12-9-11----9--------------------------|
|--------------------------12---10-5--5-5-5-5---5-5-5----|
|----------------------------------3--3-3-3-3---3-3-3----|

|---------------------------------------|
|---------------------------------------|
|--12-9-11----9-------------------------|
|----------12---11-12-9-11----9-----4---|
|--------------------------12---10--2---|
|---------------------------------------|

Gtr 2 Gtr 1
|------------------------------------7--|---------------------------------|
|---------------------------------------|---------------------------------|
|--12-9-11----9-------------------------|-12-9-11---9-11-12-9-11----9-11--|
|----------12---11-12-9-11----9---------|---------12-------------12------4|
|--------------------------12---10------|--------------------------------2|
|---------------------------------------|---------------------------------|
Gtr 2 Gtr 1
|------------------------------------7---|---------------------------------|
|--------------------------------------8-|---------------------------------|
|--12-9-11----9--------------------------|-12-9-11---9-11-12-9-11----9-11--|
|----------12---11-12-9-11----9----------|---------12-------------12------4|
|--------------------------12---10-------|--------------------------------2|
|----------------------------------------|---------------------------------|

|------------------------------------7--|---------------------------------|
|---------------------------------------|---------------------------------|
|--12-9-11----9-------------------------|-12-9-11---9-11-12-9-11----9-11--|
|----------12---11-12-9-11----9---------|---------12-------------12------4|
|--------------------------12---10------|--------------------------------2|
|---------------------------------------|---------------------------------|

now play verse 2 over rhythm fig 3 followed by chores


Take a look to the sky just before you die, its the last time you will
Blackened roar, massive roar fills the crumbling sky, shattered goal fills the
soul with a ruthless cry
Stranger now are his eyes to this mystery, hears the silence so loud
Crack of dawn, all is gone except the will to be
Now they see what well be blinded eyes to see


For Whom the Bell Tolls
Time marches on
For Whom the Bell Tolls


outro riff

|---------------------------|
|---------------------------|
|---------------------------|
|--2---4-4---2---4-4-5-5--2-|
|--2---4-4---2---4-4-5-5--2-|
|--0---2-2---0---2-2-3-3--0-|

ProTabs promo.jpg

Onbeperkt en gratis toegang tot alle 25.000
Tabs & Chords en direct meespelen met

Artiest Liedje

...

Gitaarakkoorden metallica - From whom the bells toll

Dankzij de bladmuziek op deze pagina wordt het een stuk makkelijker om met de gitaar mee te spelen met From whom the bells toll van metallica De ProTabs van Gitaartabs worden door onze professionele gitaardocenten samengesteld. De tabs en chords zijn door leden zelf geplaatst. Deze undefined van metallica met From whom the bells toll is voor je geschreven door rollinthunder

Tabs & Chords van metallica - From whom the bells toll

Bij de ProTabs delen we niet alleen de tablatuur maar ook de speelwijze van From whom the bells toll Met een beetje gitaar ervaring moet je dit gitaarliedje zeker kunnen spelen, maar als het niet lukt zijn we er altijd om je te helpen. Door een gratis account aan te maken krijg je niet alleen toegang tot deze tab ,akkoorden & tabs van From whom the bells toll maar kun je ook onbeperkt meespelen met een van de meer dan 25.000 andere tabs & chords in onze database.

Plaats opmerking

Beoordeel deze song

Rate UsDon’t love itNot greatGoodGreatLove itRate Us

Bedankt voor je beoordeling!