No leaf clover

Gitaarliedjes, tabs & akkoorden (chords) No leaf clover - metallica

Songtype: Tab

arrow&v

Markeer als favoriet

Favoriet

Gemarkeerd als favoriet

Capo:

0

metallica

metallica

Song
Album
Categorie

No leaf clover

Downloads
3168
Niveau
2

Geplaatst door
sander
ProTabs-promo.jpg

Distortion:

E-------------------------------------------------------------------------------|
B-------------------------------------------------------------------------------|
G-------------------------------------------------------------------------------|
D---2-2-2--2--2-0-2--2-0-2-4-----2-2-2--2--2-0-2--2-2-2-4-|
A---2-2-2--2--2-0-2--2-0-2-4-----2-2-2--2--2-0-2--2-2-2-4-|
E---0-0-0--0--0-0-0--0-0-0-2-----0-0-0--0--0-0-0--0-0-0-2-|

E-------------------------------------------------------|
B-------------------------------------------------------|
G-------------------------------------------------------|
D--2-2-2--2--2-0-2--2-0-2-4-----2-4--2-4-|
A--2-2-2--2--2-0-2--2-0-2-4-----2-4--2-4-|
E--0-0-0--0--0-0-0--0-0-0-2-----0-2--0-2-| (x2)

Clean:

E--7---7----8-----8----7---7----8-----8-----|
B--8---8---10---10---7---7---10---10----|
G----9---9------9----9---8---8------9-----9-|
D----------------------------------------------------|
A----------------------------------------------------|
E----------------------------------------------------|

E--7---7----8-----8----7---7-------------------------|
B--8---8---10---10---7---7-----------10-----10-|
G----9---9------9----9---8---8----8/9----8/9-----|
D-----------------------------------------------------------|
A-----------------------------------------------------------|
E-----------------------------------------------------------|

E--7---7----8-----8----7---7----------------10-8-----------|
B--8---8---10---10---7---7-----------10--------10-------|
G----9---9------9----9---8---8----8/9-----------------------|
D--------------------------------------------------------------------|
A--------------------------------------------------------------------|
E--------------------------------------------------------------------|

E--7---7----8-----8----7---7-----------------8------|
B--8---8---10---10---7---7------------10----10-|
G----9---9-----9----9----8---8----8/9--------------|
D----------------------------------------------------------|
A----------------------------------------------------------|
E-----------------------------------------------------------|


And it feels right this time
On this crash course we're in the big time
Pay no mind to the distant thunder


Beauty fills his head with wonder, boy....


Says it feels right this time
Turn around, found new high lights
Good day to be alive Sir
Good day to be alive, he said.....


Then it comes to be that the soothing light
at the end of your tunnel
is just a freight train coming your way
Then it comes to be that the soothing light
at the end of your tunnel
is just the freight train coming your way


Don't it feel right like this
All the pieces fall to his wish
Suck up for that quick reward, boy
Suck up for that quick reward, they said.....


Then it comes to be that the soothing light
at the end of your tunnel
is just a freight train coming your way
Then it comes to be that the soothing light
at the end of your tunnel
is just the freight train coming your way......
It's coming your way
It's coming your way......
Here comes


Yeah, Then it comes to be that the soothing light
at the end of your tunnel
Is just a freight train coming your way.... Yeah...
Then it comes to be, Yeah...
Then it comes to be, Yeah...
Then it comes to be, Yeah...
Then it comes to be, Yeah...
Then it comes to be, Yeah...
Then it comes to be, Yeah...
Then it comes to be, Yeah...
Then it comes to be, Yeah

ProTabs promo.jpg

Onbeperkt en gratis toegang tot alle 25.000
Tabs & Chords en direct meespelen met

Artiest Liedje

...

Gitaarakkoorden metallica - No leaf clover

Dankzij de bladmuziek op deze pagina wordt het een stuk makkelijker om met de gitaar mee te spelen met No leaf clover van metallica De ProTabs van Gitaartabs worden door onze professionele gitaardocenten samengesteld. De tabs en chords zijn door leden zelf geplaatst. Deze undefined van metallica met No leaf clover is voor je geschreven door sander

Tabs & Chords van metallica - No leaf clover

Bij de ProTabs delen we niet alleen de tablatuur maar ook de speelwijze van No leaf clover Met een beetje gitaar ervaring moet je dit gitaarliedje zeker kunnen spelen, maar als het niet lukt zijn we er altijd om je te helpen. Door een gratis account aan te maken krijg je niet alleen toegang tot deze tab ,akkoorden & tabs van No leaf clover maar kun je ook onbeperkt meespelen met een van de meer dan 25.000 andere tabs & chords in onze database.

Plaats opmerking

Verstuur

Beoordeel deze song

Rate UsDon’t love itNot greatGoodGreatLove itRate Us

Bedankt voor je beoordeling!