Heretic anthem

Gitaarliedjes, tabs & akkoorden (chords) Heretic anthem - slipknot

Songtype: Tab

arrow&v

Markeer als favoriet

Favoriet

Gemarkeerd als favoriet

Capo:

0

slipknot

slipknot

Song
Album
Categorie

Heretic anthem

Downloads
1586
Niveau
2
Geplaatst door
lastwulf
ProTabs-promo.jpg

Intro:

Mick:
B |-----------------|
F#|-----------------|
D |-----------------|
A |-------------7/0-|
E |-------------7/0-|
A |-------------7/0-|


_
B |-----------------|----------------|----------------|----------------| \
F#|-----------------|----------------|----------------|----------------| |
D |-----------------|----------------|----------------|----------------| |
A |-0-0-0-1-0-0-0-1-|0-0-0-1-0-0-0-1-|0-0-0-1-0-0-0-1-|0-0-0-1-0-0-0-1-| |
E |-0-0-0-1-0-0-0-1-|0-0-0-1-0-0-0-1-|0-0-0-1-0-0-0-1-|0-0-0-1-0-0-0-1-| |
A |-0-0-0-1-0-0-0-1-|0-0-0-1-0-0-0-1-|0-0-0-1-0-0-0-1-|0-0-0-1-0-0-0-1-| |
PM - - - - - - - - - - - - - - - - - - - - - - - - \ \
> X1
James: /
B |-----------------|----------------|----------------|----------------| |
F#|-----------------|----------------|----------------|----------------| |
D |-----------------|----------------|----------------|----------------| |
A |-----------------|------------7/0-|0-0-0-1-0-0-0-1-|0-0-0-1-0-0-0-1-| |
E |-----------------|------------7/0-|0-0-0-1-0-0-0-1-|0-0-0-1-0-0-0-1-| |
A |-----------------|------------7/0-|0-0-0-1-0-0-0-1-|0-0-0-1-0-0-0-1-| _/
PM - - - - - - - - - - - -


bijde gitaren
B |-----------------|----------------|-----------------|----------------|
F#|-----------------|----------------|-----------------|----------------|
D |-----------------|----------------|-----------------|----------------|
A |-0-0-0-1-0-0-0-1-|0-0-0-1-0-0-0-1-|-0-0-0-1-0-0-0-1-|0-0-0-1-0-0-0-1-|
E |-0-0-0-1-0-0-0-1-|0-0-0-1-0-0-0-1-|-0-0-0-1-0-0-0-1-|0-0-0-1-0-0-0-1-|
A |-0-0-0-1-0-0-0-1-|0-0-0-1-0-0-0-1-|-0-0-0-1-0-0-0-1-|0-0-0-1-0-0-0-1-|
PM - - - - - - - - - - - - - - - - - - - - - - - -




bijde gitaren
B |-----------------|----------------|-----------------|----------------|
F#|-----------------|----------------|-----------------|----------------|
D |-----------------|----------------|-----------------|----------------|
A |-0-0-0-1-0-0-0-1-|0-0-0-1-0-0-0-1-|-0-0-0-1-0-0-0-1-|0-0-0-1-0-0-0-1-|
E |-0-0-0-1-0-0-0-1-|0-0-0-1-0-0-0-1-|-0-0-0-1-0-0-0-1-|0-0-0-1-0-0-0-1-|
A |-0-0-0-1-0-0-0-1-|0-0-0-1-0-0-0-1-|-0-0-0-1-0-0-0-1-|0-0-0-1-0-0-0-1-|
PM - - - - - - - - - - - - - - - - - - - - - - - -


james: (alleen)
B |-----------------|----------------|
F#|-----------------|----------------|
D |-----------6-5---|----3-2-2-------|
A |-0-0-3-2-0-6-5-4-|3-0-3-2-2-0-1-0-|
E |-0-0-3-2-0-4-3-4-|3-0-1-0-0-0-1-0-|
A |-0-0-3-2-0-----4-|3-0-------0-1-0-|
PM - - -


james and mick: (verse)
B |-----------------|----------------|
F#|-----------------|----------------|
D |-----------6-5---|----3-2-2-------|
A |-0-0-3-2-0-6-5-4-|3-0-3-2-2-0-1-0-| X8
E |-0-0-3-2-0-4-3-4-|3-0-1-0-0-0-1-0-|
A |-0-0-3-2-0-----4-|3-0-------0-1-0-|
PM - - -


bijde gitaren
B |-----------------|----------------|----------------|----------------|
F#|-----------------|----------------|----------------|----------------|
D |-----------------|----------------|----------------|----------------|
A |-2---3/4/5-4---5/|6---5-6-6-7---7-|2---3/4/5-4---5/|6---5-6-6-7---7-| X4
E |-2---3/4/5-4---5/|6---5-6-6-7---7-|2---3/4/5-4---5/|6---5-6-6-7---7-|
A |-2---3/4/5-4---5/|6---5-6-6-7---7-|2---3/4/5-4---5/|6---5-6-6-7---7-|
PM -



james: (alleen)
B |-----------------|----------------|
F#|-----------------|----------------|
D |-----------6-5---|----3-2-2-------|
A |-0-0-3p2-0-6-5-4-|3-0-3-2-2-0-1-0-|
E |-0-0-3p2-0-4-3-4-|3-0-1-0-0-0-1-0-|
A |-0-0-3p2-0-----4-|3-0-------0-1-0-|
PM - - -


bijde gitaren
B |-----------------|----------------|-----------------|----------------|
F#|-----------------|----------------|-----------------|----------------|
D |-----------------|----------------|-----------------|----------------|
A |-0-0-0-1-0-0-0-1-|0-0-1-2-3-2-4-5-|-0-0-0-1-0-0-0-1-|0-0-2-3-4-3-4-5-| X4
E |-0-0-0-1-0-0-0-1-|0-0-1-2-3-2-4-5-|-0-0-0-1-0-0-0-1-|0-0-2-3-4-3-4-5-|
A |-0-0-0-1-0-0-0-1-|0-0-1-2-3-2-4-5-|-0-0-0-1-0-0-0-1-|0-0-2-3-4-3-4-5-|
PM - - - - - - - - - - - - - - - -


bijde gitaren
B |-----------------|----------------|----------------|----------------|
F#|-----------------|----------------|----------------|----------------|
D |-----------------|----------------|----------------|----------------| X4
A |-2---3/4/5-4---5/|6---5-6-6-7---7-|2---3/4/5-4---5/|6---5-6-6-7---7-|
E |-2---3/4/5-4---5/|6---5-6-6-7---7-|2---3/4/5-4---5/|6---5-6-6-7---7-|
A |-2---3/4/5-4---5/|6---5-6-6-7---7-|2---3/4/5-4---5/|6---5-6-6-7---7-|
PM -


Drum solo en bijde gitaren
B |-----------------|----------------|--------------------|
F#|-----------------|----------------|--------------------|
D |-----------------|----------------|--------------------|
A |-----------------|----------------|------------------3-|
E |-----------------|----------------|------------------3-|
A |-----------------|----------------|------------------3-|
1 & 2 & 3 & 4 & 1 & 2 & 3 & 4 & 1 & 2 & 3 & 4 & 5 &


mick: _
B |-----------------|----------------|----------------|----------------| \
F#|-----------------|----------------|----------------|----------------| |
D |-----------------|----------------|----------------|----------------| |
A |-0-1-0-3---------|----------------|----------------|----------------| |
E |-0-1-0-3---------|----------------|----------------|----------------| |
A |-0-1-0-3---------|----------------|----------------|----------------| |
\
james: / X1
B |-----------------|----------------|----------------|----------------| |
F#|-----------------|----------------|----------------|----------------| |
D |-----------------|----------------|----------------|----------------| |
A |-0-1-0-3-0-0-0-0-|0-1-2-3-0-1-0-3-|0-1-2-3-0-0-0-0-|0-6-5-0-4-3-0-3-| |
E |-0-1-0-3-0-0-0-0-|0-1-2-3-0-1-0-3-|0-1-2-3-0-0-0-0-|0-6-5-0-4-3-0-3-| |
A |-0-1-0-3-0-0-0-0-|0-1-2-3-0-1-0-3-|0-1-2-3-0-0-0-0-|0-6-5-0-4-3-0-3-| _/
PM - - - - - - - - - - - -


bijde gitaren
B |-----------------|----------------|----------------|----------------|
F#|-----------------|----------------|----------------|----------------|
D |-----------------|----------------|----------------|----------------|
A |-0-1-0-3-0-0-0-0-|0-1-2-3-0-1-0-3-|0-1-2-3-0-0-0-0-|0-6-5-0-4-3-----|
E |-0-1-0-3-0-0-0-0-|0-1-2-3-0-1-0-3-|0-1-2-3-0-0-0-0-|0-6-5-0-4-3-----|
A |-0-1-0-3-0-0-0-0-|0-1-2-3-0-1-0-3-|0-1-2-3-0-0-0-0-|0-6-5-0-4-3-----|
PM - - - - - - - - - - -


bijde gitaren _
B |-----------------|----------------|----------------|----------------| \
F#|-----------------|----------------|----------------|----------------| |
D |-----------------|----------------|----------------|----------------| |
A |-0-1-0-3-0-0-0-0-|0-1-2-3-0-1-0-3-|0-1-2-3-0-0-0-0-|0-6-5-0-4-3-0-3-| |
E |-0-1-0-3-0-0-0-0-|0-1-2-3-0-1-0-3-|0-1-2-3-0-0-0-0-|0-6-5-0-4-3-0-3-| |
A |-0-1-0-3-0-0-0-0-|0-1-2-3-0-1-0-3-|0-1-2-3-0-0-0-0-|0-6-5-0-4-3-0-3-| |
PM - - - - - - - - - - - - \
/ X2
B |-----------------|----------------|----------------|----------------| |
F#|-----------------|----------------|----------------|----------------| |
D |-----------------|----------------|----------------|----------------| |
A |-0-1-0-3-0-0-0-0-|0-1-2-3-0-1-0-3-|0-1-2-3-0-0-0-0-|0-6-5-0-4-3-----| |
E |-0-1-0-3-0-0-0-0-|0-1-2-3-0-1-0-3-|0-1-2-3-0-0-0-0-|0-6-5-0-4-3-2.1*| |
A |-0-1-0-3-0-0-0-0-|0-1-2-3-0-1-0-3-|0-1-2-3-0-0-0-0-|0-6-5-0-4-3-----| _/
PM - - - - - - - - - - -


bijden gitaren
B |-----------------|----------------|----------------|----------------|
F#|-----------------|----------------|----------------|----------------|
D |-----------------|----------------|----------------|----------------|
A |-0-1-0-3---------|--1-2-3-0-1-0-3-|0-1-2-3---------|------1-5-1-----|
E |-0-1-0-3---------|--1-2-3-0-1-0-3-|0-1-2-3---------|------1-5-1-----|
A |-0-1-0-3---------|--1-2-3-0-1-0-3-|0-1-2-3---------|------1-5-1-----|


bijde gitaren
B |-----------------|----------------|----------------|----------------|
F#|-----------------|----------------|----------------|----------------|
D |-----------------|----------------|----------------|----------------|
A |-0-1-0-3---------|--1-2-3-0-1-0-3-|0-1-2-3---------|----------0-0-0-|
E |-0-1-0-3---------|--1-2-3-0-1-0-3-|0-1-2-3---------|----------0-0-0-|
A |-0-1-0-3---------|--1-2-3-0-1-0-3-|0-1-2-3---------|----------0-0-0-|


1st gitaar _
B |-----------------|----------------|----------------|----------------| \
F#|-----------------|----------------|----------------|----------------| |
D |-----------------|----------------|----------------|----------------| |
A |-0-1-0-3---------|--1-2-3-0-1-0-3-|0-1-2-3---------|------1-5-1-----| |
E |-0-1-0-3---------|--1-2-3-0-1-0-3-|0-1-2-3---------|------1-5-1-----| |
A |-0-1-0-3---------|--1-2-3-0-1-0-3-|0-1-2-3---------|------1-5-1-----| |
\
2de gitaar / X1
B |-----------------|----------------|----------------|----------------| |
F#|-----------------|----------------|----------------|----------------| |
D |-----------------|----------------|----------------|----------------| |
A |-----------------|----------------|----------------|----------------| |
E |-----------------|----------------|----------------|----------------| |
A |-0-0-0-0-0-0-0-0-|0-0-0-0-0-0-0-0-|0-0-0-0-0-0-0-0-|0-0-0-0-0-0-0-0-| _/
PM - - - - - - - - - - - - - - - - - - - - - - - - - - - - - - - -


1st gitaar _
B |-----------------|----------------|----------------|----------------| \
F#|-----------------|----------------|----------------|----------------| |
D |-----------------|----------------|----------------|----------0-----| |
A |-0-1-0-3---------|--1-2-3-0-1-0-3-|0-1-2-3---------|------------0---| |
E |-0-1-0-3---------|--1-2-3-0-1-0-3-|0-1-2-3---------|--------------0-| |
A |-0-1-0-3---------|--1-2-3-0-1-0-3-|0-1-2-3---------|----------------| |
\
2de gitaar / X1
B |-----------------|----------------|----------------|----------------| |
F#|-----------------|----------------|----------------|----------------| |
D |-----------------|----------------|----------------|----------0-----| |
A |-----------------|----------------|----------------|------------0---| |
E |-----------------|----------------|----------------|--------------0-| |
A |-0-0-0-0-0-0-0-0-|0-0-0-0-0-0-0-0-|0-0-0-0-0-0-0-0-|0-0-0-0-0-------| _/
PM - - - - - - - - - - - - - - - - - - - - - - - - - - - - -


Mick: (Tremolo)
B |-----------------|----------------|----------------|----------------|
F#|-----------------|----------------|----------------|----------------|
D |-----------------|----------------|----------------|----------------|
A |-2-2-2-2-5-5-5-5-|4-4-4-4-5-5-5-5-|6-6-6-6-5-5-6-6-|6-6-7-7-7-7-7-7-| X4
E |-----------------|----------------|----------------|----------------|
A |-----------------|----------------|----------------|----------------|

mick: (Tremolo)
B |-----------------|----------------|----------------|----------------|
F#|-5-5-5-5-8-8-8-8-|7-7-7-7-8-8-8-8-|9-9-9-9-8-8-9-9-|9-9-101010101010|
D |-----------------|----------------|----------------|----------------|
A |-----------------|----------------|----------------|----------------| X4
E |-----------------|----------------|----------------|----------------|
A |-----------------|----------------|----------------|----------------|


Mick and james:
B |-----------------|----------------|----------------|----------------|
F#|-----------------|----------------|----------------|----------------|
D |-----------------|----------------|----------------|----------------|
A |-2---3/4/5-4---5/|6---5-6-6-7---7-|2---3/4/5-4---5/|6---5-6-6-7---7-| X2
E |-2---3/4/5-4---5/|6---5-6-6-7---7-|2---3/4/5-4---5/|6---5-6-6-7---7-|
A |-2---3/4/5-4---5/|6---5-6-6-7---7-|2---3/4/5-4---5/|6---5-6-6-7---7-|


1st Guitar (Tremolo) _
B |-----------------|----------------|----------------|----------------| \
F#|-5ttt8ttt7ttt8ttt|9ttt8t9ttt10tttt|5ttt8ttt7ttt8ttt|9ttt8t9ttt10tttt| |
D |-----------------|----------------|----------------|----------------| |
A |-----------------|----------------|----------------|----------------| |
E |-----------------|----------------|----------------|----------------| |
A |-----------------|----------------|----------------|----------------| |
\ X2
2nd Guitar /
B |-----------------|----------------|----------------|----------------| |
F#|-----------------|----------------|----------------|----------------| |
D |-----------------|----------------|----------------|----------------| |
A |-2---3/4/5-4---5/|6---5-6-6-7---7-|2---3/4/5-4---5/|6---5-6-6-7---7-| |
E |-2---3/4/5-4---5/|6---5-6-6-7---7-|2---3/4/5-4---5/|6---5-6-6-7---7-| |
A |-2---3/4/5-4---5/|6---5-6-6-7---7-|2---3/4/5-4---5/|6---5-6-6-7---7-| _/



bijde gitaren
B |-----------------|----------------|----------------|----------------|
F#|-----------------|----------------|----------------|----------------|
D |-----------------|----------------|----------------|----------------|
A |-0-1-0-3-0-0-0-0-|0-1-2-3-0-1-0-3-|0-1-2-3-0-0-0-0-|0-6-5-0-4-3-0-3-| X3
E |-0-1-0-3-0-0-0-0-|0-1-2-3-0-1-0-3-|0-1-2-3-0-0-0-0-|0-6-5-0-4-3-0-3-|
A |-0-1-0-3-0-0-0-0-|0-1-2-3-0-1-0-3-|0-1-2-3-0-0-0-0-|0-6-5-0-4-3-0-3-|
PM - - - - - - - - - - - -


Both Guitars
B |-----------------|----------------|----------------|----------------|
F#|-----------------|----------------|----------------|----------------|
D |-----------------|----------------|----------------|----------------|
A |-0-1-0-3-0-0-0-0-|0-1-2-3-0-1-0-3-|0-1-2-3-0-0-0-0-|0-6-5-0-4-------|
E |-0-1-0-3-0-0-0-0-|0-1-2-3-0-1-0-3-|0-1-2-3-0-0-0-0-|0-6-5-0-4-------|
A |-0-1-0-3-0-0-0-0-|0-1-2-3-0-1-0-3-|0-1-2-3-0-0-0-0-|0-6-5-0-4-------|

ProTabs promo.jpg

Onbeperkt en gratis toegang tot alle 25.000
Tabs & Chords en direct meespelen met

Artiest Liedje

...

Gitaarakkoorden slipknot - Heretic anthem

Dankzij de bladmuziek op deze pagina wordt het een stuk makkelijker om met de gitaar mee te spelen met Heretic anthem van slipknot De ProTabs van Gitaartabs worden door onze professionele gitaardocenten samengesteld. De tabs en chords zijn door leden zelf geplaatst. Deze undefined van slipknot met Heretic anthem is voor je geschreven door lastwulf

Tabs & Chords van slipknot - Heretic anthem

Bij de ProTabs delen we niet alleen de tablatuur maar ook de speelwijze van Heretic anthem Met een beetje gitaar ervaring moet je dit gitaarliedje zeker kunnen spelen, maar als het niet lukt zijn we er altijd om je te helpen. Door een gratis account aan te maken krijg je niet alleen toegang tot deze tab ,akkoorden & tabs van Heretic anthem maar kun je ook onbeperkt meespelen met een van de meer dan 25.000 andere tabs & chords in onze database.

Plaats opmerking

Beoordeel deze song

Rate UsDon’t love itNot greatGoodGreatLove itRate Us

Bedankt voor je beoordeling!