Sic

Gitaarliedjes, tabs & akkoorden (chords) Sic - slipknot

Songtype: Tab

arrow&v

Markeer als favoriet

Favoriet

Gemarkeerd als favoriet

Capo:

0

slipknot

slipknot

Song
Album
Categorie

Sic

Downloads
70
Niveau
2
Geplaatst door
gitaartabs
ProTabs-promo.jpg

Drop D tuning

GEEEEEEN idee of het zo klopt, het klinkt goed op mn acoustische xD

Riff A 2x
|-----------------------------------------------------------------|
|-----------------------------------------------------------------|
|-----------------------------------------------------------------|
|-----------------------------------------------------------------|
|---0-------0-------0---------1-----0-------0-------0---------1---|
|-1-0---0-1-0---0-1-0---0-1-0-1---1-0---0-1-0---0-1-0---0-1-0-1---|



Riff B 2x
|-----------------------------------------------------------------|
|-----------------------------------------------------------------|
|-----------------------------------------------------------------|
|-----------------------------------------------------------------|
|---0-------0-------0---------1-----0-------0-------0---------1---|
|-1-0---001-0---001-0---001-0-1---1-0---001-0---001-0---001-0-1---|


Pauze


Riff C 2x
|-----------------------------------------------------------------|
|-----------------------------------------------------------------|
|-----------------------------------------------------------------|
|-----------------------------------------------------------------|
|-3\2-----2\1-----3\2-----2\1-----3\2-----2\1-----3\2-----2\1-----|
|-3\2-0-0-2\1-0-0-3\2-0-0-2\1-0-0-3\2-0-0-2\1-0-0-3\2-0-0-2\1-0-0-|


Opvullertje 1
|-----|
|-----|
|-----|
|-----|
|-3\2-|
|-3\2-|


Riff D
|--------------------------------|
|--------------------------------|
|--------------------------------|
|--------------------------------|
|--------------------------------|
|-1-0-0--1-0--1-0--1-0-1-4-3-0-3-|


Opvuller 2, gtr 1
|------------------------------|
|------------------------------|
|------------------------------|
|------------------------------|
|----------------------4-3-0-3-|
|-1-0-0-1-0--1-0-1-0-1-4-3-0-3-|

grt 2
|------------------------------|
|------------------------------|
|------------------------------|
|------------------------------|
|----------------------4-3-0-3-|
|-1-0-0-1-0--1-0-1-0-1-4-3-0-3-|


Riff E 2x
|---------------------------------------------------------------|
|---------------------------------------------------------------|
|---------------------------------------------------------------|
|---------------------------------------------------------------|
|-1-0-0--1-0--1-0--1-0-1-4-3-0-3-1-0-0--1-0--1-0--1-0-1-4-3-0-3-|
|-1-0-0--1-0--1-0--1-0-1-4-3-0-3-1-0-0--1-0--1-0--1-0-1-4-3-0-3-|




Riff D 2x
Riff E 1x


Fill 3
|------------------------|
|------------------------|
|------------------------|
|------------------------|
|-1-0-0--1-0--1-0--1-0---|
|-1-0-0--1-0--1-0--1-0---|


Riff F gtr 1 2x
|-----------------------------------------|
|-----------------------------------------|
|-----------------------------------------|
|-5555------4444------5555------4444------|
|------7777------6666------7777------6666-|
|-----------------------------------------|

gtr 2
|----------------------------------|
|----------------------------------|
|----------------------------------|
|----------------------------------|
|----------------------------------|
|-55552222444411115555222244441111-|


Fill 2 ( en een variatie erop)
Riff E 2tx


Riff E.1 2x
|---------------------------------------------------------------|
|---------------------------------------------------------------|
|---------------------------------------------------------------|
|---------------------------------------------------------------|
|-1-0-0--1-0--1-0--1-0-1-4-3-0-3-1-0-0--1-0--1-0--1-0-1-4-3-0-3-|
|-1-0-0--1-0--1-0--1-0-1-4-3-0-3-1-0-0--1-0--1-0--1-0-1-4-3-0-3-|



Fill 3
Riff F 2tx


Riff G (Bridge) 2x
|----------------------------------------------|
|----------------------------------------------|
|-7---------8--------8\--7---------8--------8\-|
|----------------------------------------------|
|-5---------6--------6\--5---------6--------6\-|
|-----6~-0------7~-----------6~-0------7~------|



*Riff H(wah drin zetten) 2x
|----------------------------------------------|
|----------------------------------------------|
|-8---8------------------8---8-----------------|
|----------------------------------------------|
|-6---6---7-6---6---6-6--6---6---7-6---6---6-6-|
|---------7-6---6---6-6----------7-6---6---6-6-|


*Gtr 2 doet hetzelfde alleen dan zonder dat ge'wah


Fill 4
|----|
|----|
|----|
|----|
|-6\-|
|-6\-|


Riff I 2x
|-------------------------------------------|
|-------------------------------------------|
|-------------------------------------------|
|-------------------------------------------|
|-0--0---0---0---0-0h1-0--0---0---0---0-0h1-|
|-0--0---0---0---0-0h1-0--0---0---0---0-0h1-|


Riff J 2x
|-----------------------------------------------------|
|-----------------------------------------------------|
|-----------------------------------------------------|
|-------------3-------------------------3-------------|
|-0---3---2---1---------1---0---3---2---1---------1---|
|-0---3---2-------0-3-2-1---0---3---2-------0-3-2-1---|
. . . . . .


Riff I 2tx


Riff K 8x
|-------------------------------------------------------------|
|-------------------------------------------------------------|
|-------------------------------------------------------------|
|-------------------------------------------------------------|
|-5-2-0-2-0--5-2-0-2-0--5-2-0-2-5-2-0-2-0--5-2-0-2-0--5-2-0-2-|
|-5-2-0-2-0--5-2-0-2-0--5-2-0-2-5-2-0-2-0--5-2-0-2-0--5-2-0-2-|


Outro(clean) einde
|---------------------------------|---|
|---------------------------------|---|
|---------------------------------|---|
|---------------------------------|---|
|---------------------------------|---|
|-0---3--2---1--4-0---3--2---1--4-|-0-|

ProTabs promo.jpg

Onbeperkt en gratis toegang tot alle 25.000
Tabs & Chords en direct meespelen met

Artiest Liedje

...

Gitaarakkoorden slipknot - Sic

Dankzij de bladmuziek op deze pagina wordt het een stuk makkelijker om met de gitaar mee te spelen met Sic van slipknot De ProTabs van Gitaartabs worden door onze professionele gitaardocenten samengesteld. De tabs en chords zijn door leden zelf geplaatst. Deze undefined van slipknot met Sic is voor je geschreven door gitaartabs

Tabs & Chords van slipknot - Sic

Bij de ProTabs delen we niet alleen de tablatuur maar ook de speelwijze van Sic Met een beetje gitaar ervaring moet je dit gitaarliedje zeker kunnen spelen, maar als het niet lukt zijn we er altijd om je te helpen. Door een gratis account aan te maken krijg je niet alleen toegang tot deze tab ,akkoorden & tabs van Sic maar kun je ook onbeperkt meespelen met een van de meer dan 25.000 andere tabs & chords in onze database.

Plaats opmerking

Beoordeel deze song

Rate UsDon’t love itNot greatGoodGreatLove itRate Us

Bedankt voor je beoordeling!